Haberin Yok Ölüyorum [bass]

Enstrümanlar bölümünde yer alan bu konu BERKİTO tarafından paylaşıldı.

  1. BERKİTO

    BERKİTO Üye

    Tuning: E A D G



    Intro: Repeat X 4

    G---------------------------------------------|
    D---------------------------------------------|
    A-1-2-------4---------------------------------|
    E---------------------------------------------|




    G------------------------------------|
    D------------------------------------|
    A--0-----4---------------------------|
    E------------------------------------|

    Repeat X 5

    G---------------------------------------------|
    D---------------------------------------------|
    A-1-2-------4---------------------------------|
    E---------------------------------------------|

    G------------------------------------|
    D------------------------------------|
    A--0-----4---------------------------|
    E------------------------------------|

    G---------------------------------------------|
    D---------------------------------------------|
    A-1-2-------4---------------------------------|
    E---------------------------------------------|

    G---------------------------------------------|
    D-444444444444--------------------------------|
    A----------------1-2----------4---------------|
    E---------------------------------------------|


    G------------------------------------|
    D------------------------------------|
    A--0-----4----------1-2-------4------|
    E------------------------------------|

    Repeat X12

    G-----------------------------------------------------------------------------------------|
    D-------------------------------------------------------2--44-44-44-44-44-44-22-00--------|
    A-2-0----2-0-2----0-2-0----2-4----5---5-4---5-4-5----5-----------------------------44--2-0|
    E-----------------------------------------------------------------------------------------|

     
    Benzer Konular
    1. Şarkı Sözü

      Duman Haberin Yok Ölüyorum

    2. Şarkı Sözü

      Sagopa Kajmer - Bass

    3. GALİBA AŞIK OLUYORUM

    4. ecelin koynuna girdim ölüyorum

    5. Şarkı Sözü

      Berksan Ölüyorum

    Yükleniyor...