Al Beni Yar Düş Sokağı Sakinleri

Enstrümanlar bölümünde yer alan bu konu BERKİTO tarafından paylaşıldı.

  1. BERKİTO

    BERKİTO Üye

    Al Beni Yar Düş S.S

    İntro

    e-----------0--------------0-----------------0---------0---
    B---3--------3-----1----------1----0-----------0----------
    G--------------------------------------------------2--------
    D-----------------------------------------------------------
    A--0---------------0---------------0-----------------------
    E-----------------------------------------------------------

    Rhytm

    V V ^ V V ^ V

    Örnek
    G D Em
    V V ^ V V ^ V

    G D C
    V V ^ V V ^ V

    G D Bm
    V V ^ V V ^ V

    Bm D Em
    V V ^ V V ^ V


    Arpej


    e------------0---------------------------------------
    B----------------0-----------------------------------
    G-------0--------------------------------------------
    D---------------------------------------------------
    A---------------------------------------------------
    E--0-------------------------------------------------

     
  2. saol çok teşekkürler