Kavak Yelleri Dizi Müziği Notası

Enstrümanlar bölümünde yer alan bu konu cicozz tarafından paylaşıldı.

  1. cicozz

    cicozz Çocukluk cicozlarda saklı

    Kavak Yelleri Dizi Müziği Nota, Pinhani Kavak Yelleri Dizi Müziği Notası
    Nota Bilgileri burda işinize yarar umarım

    E------------------|------------|---------------|-----------|
    B------------------|------------|-----------------|-----------|
    G------------------|------------|-----------------|-----------------------|
    D-10--10--10--|----7--7--7-|----9--9--9---|--------------|
    A-8---8---8------|-x--5--5--5-|-x--7--7--7-|-x-7-7-x-x--|
    E------------------|-x----------|-x----------------|-x-5-5-x-x-|

    00.11 İntro (2 kere)
    E-8-7-5-5v.-|-4-5v.-|-5-4--5--7-5----4-5-|
    B-----------|-------|-------------------5|
    G-----------|-------|--------------------|
    D-----------|-------|--------------------|
    A-----------|-------|--------------------|
    E-----------|-------|--------------------|

    00.17
    E-8-7-5-5v.-|-4-5v.-|-5-4--5--7-5---4-5-|
    B-----------|-------|-------------------|
    G-----------|-------|-------------------|
    D-----------|-------|-------------------|
    A-----------|-------|-------------------|
    E-----------|-------|-------------------|

    Sözler
    İçinden geleni söyle kalırsa yazık olur

    00.57 (4 Tekrar)
    E----------------|----------------|---------------------|
    B----------------|----------------|---------------------|
    G----------------|----------7-----|---------------------|
    D10-9--10-9--10-9|7-10-9--10--10-9|7-6--7-6--7-9-7--6-7v|
    A----------------|----------------|---------------------|
    E----------------|----------------|---------------------|

    01.20 Ara intro
    E-8-7-5-5v.-|-4-5v.-|-5-4--5--7-5----4-5-|
    B-----------|-------|-------------------5|
    G-----------|-------|--------------------|
    D-----------|-------|--------------------|
    A-----------|-------|--------------------|
    E-----------|-------|--------------------|

    E-8-7-5-5v.-|-4-5v.-|-5-4--5--7-5---4-5-|
    B-----------|-------|-------------------|
    G-----------|-------|-------------------|
    D-----------|-------|-------------------|
    A-----------|-------|-------------------|
    E-----------|-------|-------------------|

    Sözler
    İçinden geleni söyle
    02.06 (4 Tekrar)
    E----------------|----------------|---------------------|
    B----------------|----------------|---------------------|
    G----------------|----------7-----|---------------------|
    D10-9--10-9--10-9|7-10-9--10--10-9|7-6--7-6--7-9-7--6-7v|
    A----------------|----------------|---------------------|
    E----------------|----------------|---------------------|

    02.30
    E---------|-------------|-------------|------------------|
    B---------|-------------|-------------|------------------|
    G2-4-5-4-5|4-5--5-4--5-7|5-4--4-2--1-4|2-----------------|
    D---------|-------------|-------------|-2-0s2-0s2-0s2-0s2|
    A---------|-------------|-------------|------------------|
    E---------|-------------|-------------|------------------|

    02.36
    E--------------|--------------10|-------------|-----------|
    B10-12-13-12-13|12-13-13-12-13--|13-12-12-10-9|12-10------|
    G--------------|----------------|-------------|------9-9/0|
    D--------------|----------------|-------------|-----------|
    A--------------|----------------|-------------|-----------|
    E--------------|----------------|-------------|-----------|

    02.47
    E---------|------------|------------|-----------|---------|
    B---8-----|-----8-8----|----8s7-5---|-10-8------|-15v.15v.|
    G-9---7v.-|---9-----7-5|--9------7-5|------7-5--|---------|
    D---------|-7----------|7-----------|7---------7|7--------|
    A---------|------------|------------|-----------|---------|
    E---------|------------|------------|-----------|---------|

    E----------------------------|
    B-15--15s13--13--------------|
    G--------------14---12--14---|
    D----------------------------|
    A----------------------------|
    E----------------------------|


    mi fa sol fa mi fa re re mi fa mi re mi do do re mi do re la re do do si la si do (sol) do si do_si do si do si do re do si do (sol)

    [​IMG]
    [​IMG]
     
    Son düzenleme: 6 Aralık 2008