Kırmış Kalbini

Enstrümanlar bölümünde yer alan bu konu BERKİTO tarafından paylaşıldı.

  1. BERKİTO

    BERKİTO Üye

    kahpe dölün soyu ele vermiş seni
    e|-----------------------------------------------------------------------|
    B|-----------------------------------------------------------------------|
    G|-4h5p4-2--4-2-1/2-2-----2-1-------4h5p4--4-2-1/2-2-----2-1-------------|
    D|------------------4-------2---2/4----------------4-------2---2/4-------|
    A|-----------------------------------------------------------------------|
    E|-----------------------------------------------------------------------|

    nice yıllar boyu kırmış kalbini kırmış kalbini
    e|-----------------------------------------------------------------------|
    B|-----------------------------------------------------------------------|
    G|-4h5p4-2--4-2-1/2-2-----2-1-------4h5p4--4-2-1/2-1------4-1/2/1---1--4-|
    D|------------------4-------2---2/4----------------2------2--------2-2-2-|
    A|-----------------------------------------------------------------------|
    E|-----------------------------------------------------------------------|

    F#m E F#m
    e|-----------------------------------------------------------------------|
    B|-----------------------------------------------------------------------|
    G|-4h5p4-2--4-2-1/2-2--4-6-6-6/4-4/1---4h5p4-2--4-2-1/2-2----------------|
    D|------------------4----------------2------------------4----------------|
    A|-----------------------------------------------------------------------|
    E|-----------------------------------------------------------------------|

    F#m E F#m E E
    e|-----------------------------------------------------------------------|
    B|-----------------------------------------------------------------------|
    G|-4-6-6-6/4-4/9-9-9-9-9-9-9---4-6-6-6/4-4/1---4h5p4--4-2-1/2-1----------|
    D|-------------------------------------------2----------------2----------|
    A|-----------------------------------------------------------------------|
    E|-----------------------------------------------------------------------|
    F#m E F#m
    e|-----------------------------------------------------------------------|
    B|-----------------------------------------------------------------------|
    G|--1-1-1/2--1/2/1---1-1-1/2-2-------------------------------------------|
    D|-2-2--------------2-2------4-------------------------------------------|
    A|-----------------------------------------------------------------------|
    E|-----------------------------------------------------------------------|

    F#m E F#m E F#m
    aynı yolun eri çekemezmiş seni
    e|-----------------------------------------------------------------------|
    B|-----------------------------------------------------------------------|
    G|------------4h5p4-2--4-2-1/2-2---------------4h5p4-2--4-2-1/2-2--------|
    D|-----------------------------4--------------------------------4--------|
    A|-----------------------------------------------------------------------|
    E|-----------------------------------------------------------------------|

    F#m E
    gördüğünden beri
    e|-----------------------------------------------------------------------|
    B|-----------------------------------------------------------------------|
    G|------------4h5p4-2--4-2-1---------------------------------------------|
    D|-------------------------2---------------------------------------------|
    A|-----------------------------------------------------------------------|
    E|-----------------------------------------------------------------------|

    E F#m E F#m E F#m E F#m
    kırmış kalbini kırmış kalbini kırmış kalbini kırmış kalbini
    e|----------------0-----------------2------------------0------------------|
    B|-------------0---0--------------2--2---------------0--0-----------------|
    G|-1-1-1-1/2-----2--1--1-1-1-1/2-2-2--2--1-1-1-1/2----2--1--1-1-1-1/2-----| ???
    D|--2-2-------4---------2-2-----4---------2-2-------4--------2-2-----4----|
    A|------------------------------------------------------------------------|
    E|------------------------------------------------------------------------|

    (01:59)
    E F#m
    e|-0-----------0---2-----------2------------------------------------------|
    B|---------0---------------2----------------------------------------------| ????
    G|---1---1---1---1---2---2---2---2----------------------------------------|
    D|-----2---------------4--------------------------------------------------|
    A|------------------------------------------------------------------------|
    E|------------------------------------------------------------------------|

    e|------------------------------------------------------------------------|
    B|------------------------------------------------------------------------|
    G|------------------------------------------------------------------------|
    D|-2-2-2-2-2-2-2-2-4-4-4-4-4-4-4-4----------------------------------------|
    A|-2-2-2-2-2-2-2-2-4-4-4-4-4-4-4-4----------------------------------------|
    E|-0-0-0-0-0-0-0-0-2-2-2-2-2-2-2-2----------------------------------------|


    F#m E B
    Yolun ardına bakmadık yorulmadık
    A F#m
    Bak hala burdayız
    E B
    Belki delirdik de belirdik
    A
    Bak hala burdayız

    pm Biz neler içtik neler yedik bak hala burdayız
    e|------------------------------------------------------------------------|
    B|------------------------------------------------------------------------|
    G|------------------------------------------------------------------------|
    D|-4-4-4-4-4-4-4-4-2-2-2-2-2-2-2-2-9-9-9-9-9-9-9-9-7-7-7-7-7-7-7-7--------|
    A|-4-4-4-4-4-4-4-4-2-2-2-2-2-2-2-2-9-9-9-9-9-9-9-9-7-7-7-7-7-7-7-7--------|
    E|-2-2-2-2-2-2-2-2-0-0-0-0-0-0-0-0-7-7-7-7-7-7-7-7-5-5-5-5-5-5-5-5--------|

    Sen hiç üzülme hiç ağlama bak hala burdayız
    pm let ring
    e|-------------------------------------------------5-5-5-5-5-5-5-5--------|
    B|-------------------------------------------------5-5-5-5-5-5-5-5--------|
    G|-------------------------------------------------6-6-6-6-6-6-6-6--------|
    D|-4-4-4-4-4-4-4-4-2-2-2-2-2-2-2-2-9-9-9-9-9-9-9-9-7-7-7-7-7-7-7-7--------|
    A|-4-4-4-4-4-4-4-4-2-2-2-2-2-2-2-2-9-9-9-9-9-9-9-9-7-7-7-7-7-7-7-7--------|
    E|-2-2-2-2-2-2-2-2-0-0-0-0-0-0-0-0-7-7-7-7-7-7-7-7-5-5-5-5-5-5-5-5--------|

    F#m E F#m
    e|------------------------------------------------------------------------|
    B|------------------------------------------------------------------------|
    G|-4h5p4-2--4-2-1/2-2--4-6-6-6/4-4/1---4h5p4-2--4-2-1/2-2-----------------|
    D|------------------4----------------2------------------4-----------------|
    A|------------------------------------------------------------------------|
    E|------------------------------------------------------------------------|

    F#m E F#m E E
    e|----------------------------------------------------------------------------|
    B|----------------------------------------------------------------------------|
    G|-4-6-6-6/4-4/9-9-9-9-9-9-13---16-18-18-18-18/16-16/13--16h17p16-14-16-14-13-|
    D|----------------------------------------------------------------------------|
    A|----------------------------------------------------------------------------|
    E|----------------------------------------------------------------------------|
    F#m E F#m
    e|-----------------------------------------------------------------------| (burada sanıyorum ki iki
    B|-----------------14---14------14---------------------------------------| farklı gitar var biri
    G|---13-13---13/14---13---13-13---13/14----------------------------------| baştaki melodiyi bi oktav
    D|-14-----14------------14-----14-------16-------------------------------| düşük çalarken biri daha
    A|-----------------------------------------------------------------------| ince takılıyo ben ikisini
    E|-----------------------------------------------------------------------| birleştirmeye çalıştım)

    F#m E F#m E F#m
    kahpe dölün soyu ele vermiş seni
    e|-----------------------------------------------------------------------|
    B|-----------------------------------------------------------------------|
    G|------------4h5p4-2--4-2-1/2-2---------------4h5p4-2--4-2-1/2-2--------|
    D|-----------------------------4--------------------------------4--------|
    A|-----------------------------------------------------------------------|
    E|-----------------------------------------------------------------------|

    F#m E
    nice yıllar boyu
    e|-----------------------------------------------------------------------|
    B|-----------------------------------------------------------------------|
    G|------------4h5p4-2--4-2-1---------------------------------------------|
    D|-------------------------2---------------------------------------------|
    A|-----------------------------------------------------------------------|
    E|-----------------------------------------------------------------------|

    E F#m E F#m E F#m E F#m
    kırmış kalbini kırmış kalbini kırmış kalbini kırmış kalbini
    e|----------------0-----------------2------------------0------------------|
    B|-------------0---0--------------2--2---------------0--0-----------------|
    G|-1-1-1-1/2-----2--1--1-1-1-1/2-2-2--2--1-1-1-1/2----2--1--1-1-1-1/2-----| ???
    D|--2-2-------4---------2-2-----4---------2-2-------4--------2-2-----4----|
    A|------------------------------------------------------------------------|
    E|------------------------------------------------------------------------|

    (01:59)
    E F#m
    e|-0-----------0---2-----------2------------------------------------------|
    B|---------0---------------2----------------------------------------------| ????
    G|---1---1---1---1---2---2---2---2----------------------------------------|
    D|-----2---------------4--------------------------------------------------|
    A|------------------------------------------------------------------------|
    E|------------------------------------------------------------------------|

    e|------------------------------------------------------------------------|
    B|------------------------------------------------------------------------|
    G|------------------------------------------------------------------------|
    D|-2-2-2-2-2-2-2-2-4-4-4-4-4-4-4-4----------------------------------------|
    A|-2-2-2-2-2-2-2-2-4-4-4-4-4-4-4-4----------------------------------------|
    E|-0-0-0-0-0-0-0-0-2-2-2-2-2-2-2-2----------------------------------------|


    F#m E B
    Yolun ardına bakmadık yorulmadık
    A F#m
    Bak hala burdayız
    E B
    Belki delirdik de belirdik
    A
    Bak hala burdayız

    pm Biz neler içtik neler yedik bak hala burdayız
    e|------------------------------------------------------------------------|
    B|------------------------------------------------------------------------|
    G|------------------------------------------------------------------------|
    D|-4-4-4-4-4-4-4-4-2-2-2-2-2-2-2-2-9-9-9-9-9-9-9-9-7-7-7-7-7-7-7-7--------|
    A|-4-4-4-4-4-4-4-4-2-2-2-2-2-2-2-2-9-9-9-9-9-9-9-9-7-7-7-7-7-7-7-7--------|
    E|-2-2-2-2-2-2-2-2-0-0-0-0-0-0-0-0-7-7-7-7-7-7-7-7-5-5-5-5-5-5-5-5--------|

    Sen hiç üzülme hiç ağlama bak hala burdayız
    pm let ring
    e|-------------------------------------------------5-5-5-5-5-5-5-5--------|
    B|-------------------------------------------------5-5-5-5-5-5-5-5--------|
    G|-------------------------------------------------6-6-6-6-6-6-6-6--------|
    D|-4-4-4-4-4-4-4-4-2-2-2-2-2-2-2-2-9-9-9-9-9-9-9-9-7-7-7-7-7-7-7-7--------|
    A|-4-4-4-4-4-4-4-4-2-2-2-2-2-2-2-2-9-9-9-9-9-9-9-9-7-7-7-7-7-7-7-7--------|
    E|-2-2-2-2-2-2-2-2-0-0-0-0-0-0-0-0-7-7-7-7-7-7-7-7-5-5-5-5-5-5-5-5--------|


    solo
    e|-----------------------------------------------|
    B|-----------------------------------------------|
    G|-----------------------------------------------|
    D|-----------------------------------------------|
    A|-----------------------------------------------|
    E|-----------------------------------------------|


    F#m: 422444
    E: 022100
    B: 799877
    A: 002210

    pm: palm muting (telleri sağ avucunuzun içiyle kapatın)
    let ring: telleri açıp sesin çıkmasına izin verin
    h: hammer-on (penayla tele vurmadan perdeye basın)
    p: pull-off (penayla tele vurmadan perdeden parmağınızı çekin)

     
    Benzer Konular
    1. Şarkı Sözü

      Duman-Kırmış Kalbini

    2. Şarkı Sözü

      Orhan Hakalmaz Al Eline Kalbini

    3. Şarkı Sözü

      Akrep Nalan Sök Kalbini

    4. Şarkı Sözü

      Müslüm Gürses Kalbini Mahşere Götür

    5. Kalbini kırmak ne demek

    Yükleniyor...