Köprüaltı

Enstrümanlar bölümünde yer alan bu konu BERKİTO tarafından paylaşıldı.

  1. BERKİTO

    BERKİTO Üye

    Not: "16 Defa" lar ritim oluyor. Üşendiğim için 16 tane
    yan yana yazmadım.

    Bölüm A
    #############################################################
    e|-------------------------------------------------------
    B|-------------------------------------------------------
    G|-------------------------------------------------------
    D|---7-)-16 Defa :)------------9-)--16 Defa--------------
    A|---5-)-----------------------7-)-----------------------
    E|-------------------------------------------------------
    Denizler aştım geliyorum bilirsin derdim seninle
    intro...

    Yolumdan döndüm kopuyorum bilirsin derdim seninle
    intro...
    #############################################################

    Bölüm B

    -|-----Akorlara 8'er kez aşağı vurun------------------------------
    e|-------------------------------------------------------
    B|-------------------------------------------------------
    G|-------------------------------------------------------
    D|------7--------6----------------------4----------------
    A|------5--------4-----------4----------2----------------
    E|---------------------------2---------------------------
    D5 C#5 F#5 B5
    Denizler aştım geliyorum ister eylen benimle

    -|-----Akorlara 8'er kez aşağı vurun--
    e|-------------------------------------------------------
    B|-------------------------------------------------------
    G|----------------------------|Akorlara burda 4'er kez vurun
    D|------7--------6----------------------4----------------
    A|------5--------4------------4----------2----------------
    E|----------------------------2---------------------------
    D5 C#5 F#5 G#5 A5 B5
    Yüzünü bir görsem yeter

    D5 C#5 F#5 B5 D5
    Yolumuz ayrı biliyorum ölmeden sonbir defa belini
    C#5 F#5 G#5 A5 B5
    Kavrasam yeter

    D5 C#5 F#5 B5 D5
    Hadi gel buluşalım eski köprünün altında
    C#5 F#5 G#5 A5 B5
    Kimseler görmesin

    D5 C#5 F#5 B5 D5
    Mehtaba karşı uzanalım eski köprünün altında
    C#5 F#5 G#5 A5 B5
    Kimseler bilmesin...
    D5 C#5
    Kimseler duymasın...

    İntro


    Offfffff Offfffffff Offfffffff
    Aaaaahhhhhh Ahhhhhh Ahhhhhh

     
    Benzer Konular
    1. Şarkı Sözü

      Duman Köprüaltı

    Yükleniyor...