İstiklal Marşı - Bas Tab

Müzik bölümünde yer alan bu konu RayOfHope tarafından paylaşıldı.

  1. RayOfHope

    RayOfHope Üye

    [FONT=Courier New, Courier, mono] H H E E E E H Q Q Q Q
    G||---------------------|-----------------------|----------------------|
    D||-----------10--------|--------5--------------|----------------------|
    A||---------------------|-----7-----7-----------|--8----7----8---------|
    E||--8------------------|--8-----------8--------|-----------------8----|
    [/FONT]

    [FONT=Courier New, Courier, mono] H H Q Q Q Q H H
    --------------------|----------------------|--------------------|
    --------------------|--8----7----8---------|--8--------8--------|
    --8--------8--------|-----------------7----|--------------------|
    --------------------|----------------------|--------------------|
    [/FONT]

    [FONT=Courier New, Courier, mono] Q Q Q Q E. S E. S E. S E. S
    -------------------------|--10---9-8---------------------|
    --10---------10----10----|-------------11-10---8------11-|
    -------------------------|-----------------------11------|
    --------8----------------|-------------------------------|
    [/FONT]

    [FONT=Courier New, Courier, mono] H Q Q H H H H
    ------------8----------|----------------------|---------------------|
    -----------------------|----------------------|--10-----------------|
    -----------------------|--11--------11--------|---------------------|
    --11-------------11----|----------------------|------------8--------|
    [/FONT]

    [FONT=Courier New, Courier, mono] Q Q Q Q E. S Q Q Q Q Q H
    -------10---------10----|---------------------------|--10-------------------|
    ------------------------|--8---10-11----10----10----|--------10-------------|
    --8----------8----------|---------------------------|--------------8--------|
    ------------------------|---------------------------|-----------------------|
    [/FONT]

    [FONT=Courier New, Courier, mono] Q Q Q Q H H Q Q Q Q
    ----------------------|--------------------|----------------------|
    ----------------------|--------------------|--8----7----8---------|
    --8----7----8---------|--8--------8--------|-----------------7----|
    -----------------8----|--------------------|----------------------|
    [/FONT]

    [FONT=Courier New, Courier, mono] H H Q Q Q Q E. S E. S E. S E. S
    --------------------|-------------------------|--10---9-8---6-5---3-1---6-|
    --8--------8--------|--10---------10----10----|---------------------------|
    --------------------|-------------------------|---------------------------|
    --------------------|--------8----------------|---------------------------|
    [/FONT]

    [FONT=Courier New, Courier, mono] H Q Q H H H H
    -----------8---------|--------------------|--5-----------------|
    ---------------------|--6--------6--------|--------------------|
    --6-------------6----|--------------------|-----------3--------|
    ---------------------|--------------------|--------------------|
    [/FONT]

    [FONT=Courier New, Courier, mono] Q Q Q Q E. S Q Q Q Q Q H
    -------10---------10----|---------------------------|--10-------------------||
    --3---------------------|--8---10-11----10----10----|--------10-------------||
    -------------8----------|---------------------------|--------------8--------||
    ------------------------|---------------------------|-----------------------||
    [/FONT]
    [FONT=Courier New, Courier, mono][/FONT]

    [FONT=Courier New, Courier, mono]Duration Legend
    ---------------
    W - whole
    H - half
    Q - quarter
    E - 8th
    S - 16th
    T - 32nd
    X - 64th
    . - note dotted
    |-n-| - n-tuplets
    [/FONT]

    [FONT=Courier New, Courier, mono]Tablature Legend
    ----------------
    L - tied note
    x - dead note
    g - grace note
    (n) - ghost note
    > - accentuded note
    NH - natural harmonic
    AH - artificial harmonic
    TH - tapped harmonic
    SH - semi harmonic
    PH - pitch harmonic
    h - hammer on
    p - pull off
    b - bend
    br - bendRelease
    pb - preBend
    pbr - preBendRelease
    brb - bendReleaseBend
    \n/ - tremolo bar dip
    \n - tremolo bar dive
    -/n - tremolo bar Release up
    /n\ - tremolo bar inverted dip
    /n - tremolo bar return
    -\n - tremolo bar Release down
    S - shift slide
    s - legato slide
    / - slide into from below or out of upwards
    \ - slide into from above or out of downwards
    ~ - vibrato
    W - wide vibrato
    tr - trill
    TP - tremolo picking
    T - tapping
    S - slap
    P - pop
    < - fade in
    ^ - brush up
    v - brush down
    [/FONT]